ISO-10303-21;
HEADER;
FILE_DESCRIPTION (( 'STEP AP203' ),
    '1' );
FILE_NAME ('Q-QZWP-R4-25.4-248-M.STEP',
    '2020-12-23T01:27:19',
    ( '' ),
    ( '' ),
    'SwSTEP 2.0',
    'SolidWorks 2020',
    '' );
FILE_SCHEMA (( 'CONFIG_CONTROL_DESIGN' ));
ENDSEC;

DATA;
#1 = APPROVAL_DATE_TIME ( #151, #114 ) ;
#2 = DATE_TIME_ROLE ( 'classification_date' ) ;
#3 = DATE_AND_TIME ( #63, #105 ) ;
#4 = CIRCLE ( 'NONE', #22, 15.00000000000000000 ) ;
#5 = CARTESIAN_POINT ( 'NONE',  ( -3.000000000000000000, 0.000000000000000000, 15.00000000000000000 ) ) ;
#6 = LINE ( 'NONE', #17, #53 ) ;
#7 = MECHANICAL_CONTEXT ( 'NONE', #98, 'mechanical' ) ;
#8 = ORIENTED_EDGE ( 'NONE', *, *, #174, .F. ) ;
#9 = CARTESIAN_POINT ( 'NONE',  ( -3.000000000000000888, 12.69999999999999929, 0.000000000000000000 ) ) ;
#10 = APPROVAL ( #84, 'UNSPECIFIED' ) ;
#11 = DIRECTION ( 'NONE',  ( -1.000000000000000000, -0.000000000000000000, -0.000000000000000000 ) ) ;
#12 = APPLICATION_PROTOCOL_DEFINITION ( 'international standard', 'config_control_design', 1994, #20 ) ;
#13 = APPROVAL_DATE_TIME ( #15, #10 ) ;
#14 = SECURITY_CLASSIFICATION_LEVEL ( 'unclassified' ) ;
#15 = DATE_AND_TIME ( #134, #118 ) ;
#16 = ORGANIZATION ( 'UNSPECIFIED', 'UNSPECIFIED', '' ) ;
#17 = CARTESIAN_POINT ( 'NONE',  ( -1.614212418857619014, 1.836970198721029589E-15, -15.00000000000000000 ) ) ;
#18 = ORIENTED_EDGE ( 'NONE', *, *, #167, .T. ) ;
#19 = ORIENTED_EDGE ( 'NONE', *, *, #99, .T. ) ;
#20 = APPLICATION_CONTEXT ( 'configuration controlled 3d designs of mechanical parts and assemblies' ) ;
#21 = CC_DESIGN_DATE_AND_TIME_ASSIGNMENT ( #110, #93, ( #148 ) ) ;
#22 = AXIS2_PLACEMENT_3D ( 'NONE', #38, #103, #75 ) ;
#23 = PERSON_AND_ORGANIZATION ( #121, #16 ) ;
#24 = LOCAL_TIME ( 9, 27, 19.00000000000000000, #169 ) ;
#25 = PERSON_AND_ORGANIZATION_ROLE ( 'creator' ) ;
#26 = CC_DESIGN_PERSON_AND_ORGANIZATION_ASSIGNMENT ( #164, #64, ( #147 ) ) ;
#27 = COORDINATED_UNIVERSAL_TIME_OFFSET ( 8, 0, .AHEAD. ) ;
#28 = ORIENTED_EDGE ( 'NONE', *, *, #174, .T. ) ;
#29 = CC_DESIGN_PERSON_AND_ORGANIZATION_ASSIGNMENT ( #159, #56, ( #67 ) ) ;
#30 = CARTESIAN_POINT ( 'NONE',  ( 3.000000000000000000, 0.000000000000000000, 0.000000000000000000 ) ) ;
#31 = APPROVAL_DATE_TIME ( #106, #47 ) ;
#32 = APPROVAL_PERSON_ORGANIZATION ( #48, #114, #113 ) ;
#33 = PERSON_AND_ORGANIZATION_ROLE ( 'creator' ) ;
#34 = CARTESIAN_POINT ( 'NONE',  ( 3.000000000000000000, 0.000000000000000000, 0.000000000000000000 ) ) ;
#35 = SHAPE_DEFINITION_REPRESENTATION ( #50, #51 ) ;
#36 = LOCAL_TIME ( 9, 27, 19.00000000000000000, #60 ) ;
#37 = ORIENTED_EDGE ( 'NONE', *, *, #94, .F. ) ;
#38 = CARTESIAN_POINT ( 'NONE',  ( -3.000000000000000000, 0.000000000000000000, 0.000000000000000000 ) ) ;
#39 = CALENDAR_DATE ( 2020, 23, 12 ) ;
#40 = DIRECTION ( 'NONE',  ( 1.000000000000000000, 0.000000000000000000, 0.000000000000000000 ) ) ;
#41 = EDGE_LOOP ( 'NONE', ( #57, #18, #28, #76 ) ) ;
#42 =( NAMED_UNIT ( * ) PLANE_ANGLE_UNIT ( ) SI_UNIT ( $, .RADIAN. ) );
#43 = DIRECTION ( 'NONE',  ( 0.000000000000000000, 0.000000000000000000, 1.000000000000000000 ) ) ;
#44 = FACE_OUTER_BOUND ( 'NONE', #41, .T. ) ;
#45 = AXIS2_PLACEMENT_3D ( 'NONE', #9, #40, #133 ) ;
#46 = ADVANCED_FACE ( 'NONE', ( #86 ), #129, .T. ) ;
#47 = APPROVAL ( #170, 'UNSPECIFIED' ) ;
#48 = PERSON_AND_ORGANIZATION ( #121, #16 ) ;
#49 = COORDINATED_UNIVERSAL_TIME_OFFSET ( 8, 0, .AHEAD. ) ;
#50 = PRODUCT_DEFINITION_SHAPE ( 'NONE', 'NONE',  #148 ) ;
#51 = ADVANCED_BREP_SHAPE_REPRESENTATION ( 'Q-QZWP-R4-25.4-248-M', ( #122, #130 ), #124 ) ;
#52 = CC_DESIGN_PERSON_AND_ORGANIZATION_ASSIGNMENT ( #90, #33, ( #148 ) ) ;
#53 = VECTOR ( 'NONE', #55, 1000.000000000000000 ) ;
#54 = DIRECTION ( 'NONE',  ( 0.000000000000000000, 0.000000000000000000, 1.000000000000000000 ) ) ;
#55 = DIRECTION ( 'NONE',  ( -1.000000000000000000, -0.000000000000000000, -0.000000000000000000 ) ) ;
#56 = PERSON_AND_ORGANIZATION_ROLE ( 'design_owner' ) ;
#57 = ORIENTED_EDGE ( 'NONE', *, *, #68, .F. ) ;
#58 = DIRECTION ( 'NONE',  ( -1.000000000000000000, -0.000000000000000000, -0.000000000000000000 ) ) ;
#59 = DIRECTION ( 'NONE',  ( 0.000000000000000000, 0.000000000000000000, 1.000000000000000000 ) ) ;
#60 = COORDINATED_UNIVERSAL_TIME_OFFSET ( 8, 0, .AHEAD. ) ;
#61 = AXIS2_PLACEMENT_3D ( 'NONE', #34, #141, #120 ) ;
#62 = CALENDAR_DATE ( 2020, 23, 12 ) ;
#63 = CALENDAR_DATE ( 2020, 23, 12 ) ;
#64 = PERSON_AND_ORGANIZATION_ROLE ( 'design_supplier' ) ;
#65 = CLOSED_SHELL ( 'NONE', ( #46, #66, #143, #165 ) ) ;
#66 = ADVANCED_FACE ( 'NONE', ( #107 ), #160, .F. ) ;
#67 = PRODUCT ( 'Q-QZWP-R4-25.4-248-M', 'Q-QZWP-R4-25.4-248-M', '', ( #7 ) ) ;
#68 = EDGE_CURVE ( 'NONE', #101, #139, #6, .T. ) ;
#69 = CARTESIAN_POINT ( 'NONE',  ( -1.614212418857619014, 0.000000000000000000, 0.000000000000000000 ) ) ;
#70 = ORIENTED_EDGE ( 'NONE', *, *, #150, .F. ) ;
#71 =( LENGTH_UNIT ( ) NAMED_UNIT ( * ) SI_UNIT ( .MILLI., .METRE. ) );
#72 = DIRECTION ( 'NONE',  ( -0.000000000000000000, 0.000000000000000000, 1.000000000000000000 ) ) ;
#73 = APPROVAL_ROLE ( '' ) ;
#74 = DIRECTION ( 'NONE',  ( -1.000000000000000000, 0.000000000000000000, -0.000000000000000000 ) ) ;
#75 = DIRECTION ( 'NONE',  ( 0.000000000000000000, 0.000000000000000000, 1.000000000000000000 ) ) ;
#76 = ORIENTED_EDGE ( 'NONE', *, *, #99, .F. ) ;
#77 = CARTESIAN_POINT ( 'NONE',  ( -1.614212418857619014, 0.000000000000000000, 0.000000000000000000 ) ) ;
#78 = PRODUCT_RELATED_PRODUCT_CATEGORY ( 'detail', '', ( #67 ) ) ;
#79 = FACE_OUTER_BOUND ( 'NONE', #156, .T. ) ;
#80 = CIRCLE ( 'NONE', #117, 15.00000000000000000 ) ;
#81 = APPROVAL_ROLE ( '' ) ;
#82 = LOCAL_TIME ( 9, 27, 19.00000000000000000, #49 ) ;
#83 = PERSON_AND_ORGANIZATION ( #121, #16 ) ;
#84 = APPROVAL_STATUS ( 'not_yet_approved' ) ;
#85 = UNCERTAINTY_MEASURE_WITH_UNIT (LENGTH_MEASURE( 1.000000000000000082E-05 ), #71, 'distance_accuracy_value', 'NONE');
#86 = FACE_OUTER_BOUND ( 'NONE', #154, .T. ) ;
#87 = ORIENTED_EDGE ( 'NONE', *, *, #94, .T. ) ;
#88 = DIRECTION ( 'NONE',  ( 0.000000000000000000, 0.000000000000000000, 1.000000000000000000 ) ) ;
#89 = ORIENTED_EDGE ( 'NONE', *, *, #68, .T. ) ;
#90 = PERSON_AND_ORGANIZATION ( #121, #16 ) ;
#91 = ORIENTED_EDGE ( 'NONE', *, *, #150, .T. ) ;
#92 = CALENDAR_DATE ( 2020, 23, 12 ) ;
#93 = DATE_TIME_ROLE ( 'creation_date' ) ;
#94 = EDGE_CURVE ( 'NONE', #171, #101, #80, .T. ) ;
#95 = APPROVAL_STATUS ( 'not_yet_approved' ) ;
#96 = CC_DESIGN_APPROVAL ( #47, ( #148 ) ) ;
#97 = CC_DESIGN_SECURITY_CLASSIFICATION ( #166, ( #147 ) ) ;
#98 = APPLICATION_CONTEXT ( 'configuration controlled 3d designs of mechanical parts and assemblies' ) ;
#99 = EDGE_CURVE ( 'NONE', #139, #142, #140, .T. ) ;
#100 = ORIENTED_EDGE ( 'NONE', *, *, #167, .F. ) ;
#101 = VERTEX_POINT ( 'NONE', #119 ) ;
#102 = CARTESIAN_POINT ( 'NONE',  ( 3.000000000000000000, 0.000000000000000000, 15.00000000000000000 ) ) ;
#103 = DIRECTION ( 'NONE',  ( -1.000000000000000000, -0.000000000000000000, -0.000000000000000000 ) ) ;
#104 = AXIS2_PLACEMENT_3D ( 'NONE', #69, #128, #54 ) ;
#105 = LOCAL_TIME ( 9, 27, 19.00000000000000000, #27 ) ;
#106 = DATE_AND_TIME ( #39, #24 ) ;
#107 = FACE_OUTER_BOUND ( 'NONE', #144, .T. ) ;
#108 =( NAMED_UNIT ( * ) SI_UNIT ( $, .STERADIAN. ) SOLID_ANGLE_UNIT ( ) );
#109 = CARTESIAN_POINT ( 'NONE',  ( -3.000000000000000000, 0.000000000000000000, 0.000000000000000000 ) ) ;
#110 = DATE_AND_TIME ( #92, #36 ) ;
#111 = AXIS2_PLACEMENT_3D ( 'NONE', #77, #172, #161 ) ;
#112 = COORDINATED_UNIVERSAL_TIME_OFFSET ( 8, 0, .AHEAD. ) ;
#113 = APPROVAL_ROLE ( '' ) ;
#114 = APPROVAL ( #95, 'UNSPECIFIED' ) ;
#115 = CARTESIAN_POINT ( 'NONE',  ( -1.614212418857619014, 0.000000000000000000, 15.00000000000000000 ) ) ;
#116 = PERSON_AND_ORGANIZATION ( #121, #16 ) ;
#117 = AXIS2_PLACEMENT_3D ( 'NONE', #30, #173, #43 ) ;
#118 = LOCAL_TIME ( 9, 27, 19.00000000000000000, #112 ) ;
#119 = CARTESIAN_POINT ( 'NONE',  ( 3.000000000000000000, 1.836970198721029589E-15, -15.00000000000000000 ) ) ;
#120 = DIRECTION ( 'NONE',  ( 0.000000000000000000, 0.000000000000000000, 1.000000000000000000 ) ) ;
#121 = PERSON ( 'UNSPECIFIED', 'UNSPECIFIED', 'UNSPECIFIED', ('UNSPECIFIED'), ('UNSPECIFIED'), ('UNSPECIFIED') ) ;
#122 = MANIFOLD_SOLID_BREP ( 'Ðý×', #65 ) ;
#123 = CC_DESIGN_PERSON_AND_ORGANIZATION_ASSIGNMENT ( #23, #25, ( #147 ) ) ;
#124 =( GEOMETRIC_REPRESENTATION_CONTEXT ( 3 ) GLOBAL_UNCERTAINTY_ASSIGNED_CONTEXT ( ( #85 ) ) GLOBAL_UNIT_ASSIGNED_CONTEXT ( ( #71, #42, #108 ) ) REPRESENTATION_CONTEXT ( 'NONE', 'WORKASPACE' ) );
#125 = CC_DESIGN_APPROVAL ( #114, ( #166 ) ) ;
#126 = VECTOR ( 'NONE', #58, 1000.000000000000000 ) ;
#127 = CC_DESIGN_APPROVAL ( #10, ( #147 ) ) ;
#128 = DIRECTION ( 'NONE',  ( -1.000000000000000000, -0.000000000000000000, -0.000000000000000000 ) ) ;
#129 = CYLINDRICAL_SURFACE ( 'NONE', #104, 15.00000000000000000 ) ;
#130 = AXIS2_PLACEMENT_3D ( 'NONE', #175, #88, #157 ) ;
#131 = APPLICATION_PROTOCOL_DEFINITION ( 'international standard', 'config_control_design', 1994, #98 ) ;
#132 = CYLINDRICAL_SURFACE ( 'NONE', #111, 15.00000000000000000 ) ;
#133 = DIRECTION ( 'NONE',  ( 0.000000000000000000, 0.000000000000000000, -1.000000000000000000 ) ) ;
#134 = CALENDAR_DATE ( 2020, 23, 12 ) ;
#135 = AXIS2_PLACEMENT_3D ( 'NONE', #109, #11, #59 ) ;
#136 = AXIS2_PLACEMENT_3D ( 'NONE', #168, #74, #72 ) ;
#137 = APPROVAL_PERSON_ORGANIZATION ( #116, #47, #73 ) ;
#138 = CC_DESIGN_PERSON_AND_ORGANIZATION_ASSIGNMENT ( #83, #149, ( #166 ) ) ;
#139 = VERTEX_POINT ( 'NONE', #145 ) ;
#140 = CIRCLE ( 'NONE', #135, 15.00000000000000000 ) ;
#141 = DIRECTION ( 'NONE',  ( -1.000000000000000000, -0.000000000000000000, -0.000000000000000000 ) ) ;
#142 = VERTEX_POINT ( 'NONE', #5 ) ;
#143 = ADVANCED_FACE ( 'NONE', ( #44 ), #132, .T. ) ;
#144 = EDGE_LOOP ( 'NONE', ( #37, #100 ) ) ;
#145 = CARTESIAN_POINT ( 'NONE',  ( -3.000000000000000000, 1.836970198721029589E-15, -15.00000000000000000 ) ) ;
#146 = PERSON_AND_ORGANIZATION ( #121, #16 ) ;
#147 = PRODUCT_DEFINITION_FORMATION_WITH_SPECIFIED_SOURCE ( 'ANY', '', #67, .NOT_KNOWN. ) ;
#148 = PRODUCT_DEFINITION ( 'UNKNOWN', '', #147, #153 ) ;
#149 = PERSON_AND_ORGANIZATION_ROLE ( 'classification_officer' ) ;
#150 = EDGE_CURVE ( 'NONE', #142, #139, #4, .T. ) ;
#151 = DATE_AND_TIME ( #62, #82 ) ;
#152 = CIRCLE ( 'NONE', #61, 15.00000000000000000 ) ;
#153 = DESIGN_CONTEXT ( 'detailed design', #20, 'design' ) ;
#154 = EDGE_LOOP ( 'NONE', ( #87, #89, #70, #8 ) ) ;
#155 = LINE ( 'NONE', #115, #126 ) ;
#156 = EDGE_LOOP ( 'NONE', ( #91, #19 ) ) ;
#157 = DIRECTION ( 'NONE',  ( 1.000000000000000000, 0.000000000000000000, 0.000000000000000000 ) ) ;
#158 = APPROVAL_PERSON_ORGANIZATION ( #146, #10, #81 ) ;
#159 = PERSON_AND_ORGANIZATION ( #121, #16 ) ;
#160 = PLANE ( 'NONE',  #136 ) ;
#161 = DIRECTION ( 'NONE',  ( 0.000000000000000000, 0.000000000000000000, 1.000000000000000000 ) ) ;
#162 = PLANE ( 'NONE',  #45 ) ;
#163 = CC_DESIGN_DATE_AND_TIME_ASSIGNMENT ( #3, #2, ( #166 ) ) ;
#164 = PERSON_AND_ORGANIZATION ( #121, #16 ) ;
#165 = ADVANCED_FACE ( 'NONE', ( #79 ), #162, .F. ) ;
#166 = SECURITY_CLASSIFICATION ( '', '', #14 ) ;
#167 = EDGE_CURVE ( 'NONE', #101, #171, #152, .T. ) ;
#168 = CARTESIAN_POINT ( 'NONE',  ( 3.000000000000000888, 12.69999999999999929, 0.000000000000000000 ) ) ;
#169 = COORDINATED_UNIVERSAL_TIME_OFFSET ( 8, 0, .AHEAD. ) ;
#170 = APPROVAL_STATUS ( 'not_yet_approved' ) ;
#171 = VERTEX_POINT ( 'NONE', #102 ) ;
#172 = DIRECTION ( 'NONE',  ( -1.000000000000000000, -0.000000000000000000, -0.000000000000000000 ) ) ;
#173 = DIRECTION ( 'NONE',  ( -1.000000000000000000, -0.000000000000000000, -0.000000000000000000 ) ) ;
#174 = EDGE_CURVE ( 'NONE', #171, #142, #155, .T. ) ;
#175 = CARTESIAN_POINT ( 'NONE',  ( 0.000000000000000000, 0.000000000000000000, 0.000000000000000000 ) ) ;
ENDSEC;
END-ISO-10303-21;
